  0
SECTION
  2
HEADER
  9
$ACADVER
  1
AC1009
  9
$INSBASE
 10
0
 20
0
 30
0
  9
$EXTMIN
 10
0
 20
0
  9
$EXTMAX
 10
800000
 20
565856
  9
$LIMMIN
 10
0
 20
0
  9
$LIMMAX
 10
800000
 20
565856
  9
$LTSCALE
 40
8
  0
ENDSEC
  0
SECTION
  2
TABLES
  0
TABLE
  2
LTYPE
 70
     9
  0
LTYPE
  2
CONTINUOUS
 70
    64
  3
実線
 72
    65
 73
     0
 40
0.0
  0
LTYPE
  2
DASHED1
 70
    64
  3
--  --  --  --  --  --  --  --  
 72
    65
 73
     2
 40
2.5
 49
1.25
 49
-1.25
  0
LTYPE
  2
DASHED2
 70
    64
  3
----    ----    ----    ----    
 72
    65
 73
     2
 40
5.0
 49
2.5
 49
-2.5
  0
LTYPE
  2
DASHED3
 70
    64
  3
------  ------  ------  ------  
 72
    65
 73
     2
 40
5.0
 49
3.75
 49
-1.25
  0
LTYPE
  2
CENTER1
 70
    64
  3
----- - ----- - ----- - ----- - 
 72
    65
 73
     4
 40
10.0
 49
6.25
 49
-1.25
 49
1.25
 49
-1.25
  0
LTYPE
  2
CENTER2
 70
    64
  3
----------  --  ----------  --  
 72
    65
 73
     4
 40
20.0
 49
12.5
 49
-2.5
 49
2.5
 49
-2.5
  0
LTYPE
  2
PHANTOM1
 70
    64
  3
--- - - --- - - --- - - --- - - 
 72
    65
 73
     6
 40
10.0
 49
3.25
 49
-1.25
 49
1.25
 49
-1.25
 49
1.25
 49
-1.25
  0
LTYPE
  2
PHANTOM2
 70
    64
  3
--------  -  -  --------  -  -  
 72
    65
 73
     6
 40
20.0
 49
10.0
 49
-2.5
 49
1.25
 49
-2.5
 49
1.25
 49
-2.5
  0
LTYPE
  2
DOT
 70
    64
  3
-   -   -   -   -   -   -   -   
 72
    65
 73
     2
 40
2.5
 49
0.625
 49
-1.875
  0
LTYPE
  2
DUMMY
 70
    64
  3
ダミー
 72
    65
 73
     0
 40
0.0
  0
LTYPE
  2
RAND1
 70
    64
  3
ランダム線1
 72
    65
 73
     4
 40
10.0
 49
1.0
 49
-2.0
 49
3.0
 49
-4.0
  0
LTYPE
  2
RAND2
 70
    64
  3
ランダム線2
 72
    65
 73
     4
 40
14.0
 49
2.0
 49
-3.0
 49
4.0
 49
-5.0
  0
LTYPE
  2
RAND3
 70
    64
  3
ランダム線3
 72
    65
 73
     4
 40
18.0
 49
3.0
 49
-4.0
 49
5.0
 49
-6.0
  0
LTYPE
  2
RAND4
 70
    64
  3
ランダム線4
 72
    65
 73
     4
 40
22.0
 49
4.0
 49
-5.0
 49
6.0
 49
-7.0
  0
LTYPE
  2
RAND5
 70
    64
  3
ランダム線5
 72
    65
 73
     4
 40
26.0
 49
5.0
 49
-6.0
 49
7.0
 49
-8.0
  0
LTYPE
  2
LONG1
 70
    64
  3
----------  --  ----------  --  
 72
    65
 73
     4
 40
40.0
 49
32.5
 49
-2.5
 49
2.5
 49
-2.5
  0
LTYPE
  2
LONG2
 70
    64
  3
--------  -  -  --------  -  -  
 72
    65
 73
     6
 40
40.0
 49
30.0
 49
-2.5
 49
1.25
 49
-2.5
 49
1.25
 49
-2.5
  0
LTYPE
  2
LONG3
 70
    64
  3
+++++++++++++++..+++++++++++++++
 72
    65
 73
     2
 40
40.0
 49
37.5
 49
-2.5
  0
LTYPE
  2
LONG4
 70
    64
  3
+++++++++++++++..+++++++++++++++
 72
    65
 73
     2
 40
80.0
 49
75.0
 49
-5.0
  0
LTYPE
  2
LONG5
 70
    64
  3
----------  --  ----------  --  
 72
    65
 73
     4
 40
60.0
 49
37.5
 49
-7.5
 49
7.5
 49
-7.5
  0
LTYPE
  2
dashed
 70
   64
  3
-------   -------------   ------
 72
   65
 73
    2
 40
7.5
 49
6
 49
-1.5
  0
LTYPE
  2
dashed_spaced
 70
   64
  3
----        --------        ----
 72
   65
 73
    2
 40
12
 49
6
 49
-6
  0
LTYPE
  2
long_dashed_dotted
 70
   64
  3
------------- --- --------------
 72
   65
 73
    4
 40
15.25
 49
12
 49
-1.5
 49
0.25
 49
-1.5
  0
LTYPE
  2
long_dashed_double-dotted
 70
   64
  3
----------- --- --- ------------
 72
   65
 73
    6
 40
17
 49
12
 49
-1.5
 49
0.25
 49
-1.5
 49
0.25
 49
-1.5
  0
LTYPE
  2
long_dashed_triplicate-dotted
 70
   64
  3
--------- --- --- --- ----------
 72
   65
 73
    8
 40
18.75
 49
12
 49
-1.5
 49
0.25
 49
-1.5
 49
0.25
 49
-1.5
 49
0.25
 49
-1.5
  0
LTYPE
  2
dotted
 70
   64
  3
   -       -       -       -    
 72
   65
 73
    2
 40
1.75
 49
0.25
 49
-1.5
  0
LTYPE
  2
chain
 70
   64
  3
-------------- -- --------------
 72
   65
 73
    4
 40
18.5
 49
12
 49
-1.5
 49
3.5
 49
-1.5
  0
LTYPE
  2
chain_double_dash
 70
   64
  3
------------ -- -- -------------
 72
   65
 73
    6
 40
23.5
 49
12
 49
-1.5
 49
3.5
 49
-1.5
 49
3.5
 49
-1.5
  0
LTYPE
  2
dashed_dotted
 70
   64
  3
-----------     -     ----------
 72
   65
 73
    4
 40
9.25
 49
6
 49
-1.5
 49
0.25
 49
-1.5
  0
LTYPE
  2
double-dashed_dotted
 70
   64
  3
------   -----------   -   -----
 72
   65
 73
    6
 40
16.75
 49
6
 49
-1.5
 49
6
 49
-1.5
 49
0.25
 49
-1.5
  0
LTYPE
  2
dashed_double-dotted
 70
   64
  3
---------    -    -    ---------
 72
   65
 73
    6
 40
11
 49
6
 49
-1.5
 49
0.25
 49
-1.5
 49
0.25
 49
-1.5
  0
LTYPE
  2
double-dashed_double-dotted
 70
   64
  3
-----   ---------   -   -   ----
 72
   65
 73
    8
 40
18.5
 49
6
 49
-1.5
 49
6
 49
-1.5
 49
0.25
 49
-1.5
 49
0.25
 49
-1.5
  0
LTYPE
  2
dashed_triplicate-dotted
 70
   64
  3
-------    -    -    -    ------
 72
   65
 73
    8
 40
12.75
 49
6
 49
-1.5
 49
0.25
 49
-1.5
 49
0.25
 49
-1.5
 49
0.25
 49
-1.5
  0
LTYPE
  2
double-dashed_triplicate-dotted
 70
   64
  3
-----  ---------  -  -  -  -----
 72
   65
 73
   10
 40
20.25
 49
6
 49
-1.5
 49
6
 49
-1.5
 49
0.25
 49
-1.5
 49
0.25
 49
-1.5
 49
0.25
 49
-1.5
  0
LTYPE
  2
undefined
 70
   64
  3
--------------------------------
 72
   65
 73
    0
 40
0
  0
LTYPE
  2
_
 70
   64
  3
                                
 72
   65
 73
    0
 40
0
  0
LTYPE
  2
__18
 70
   64
  3
                                
 72
   65
 73
    0
 40
0
  0
LTYPE
  2
__19
 70
   64
  3
                                
 72
   65
 73
    0
 40
0
  0
LTYPE
  2
__20
 70
   64
  3
                                
 72
   65
 73
    0
 40
0
  0
LTYPE
  2
__21
 70
   64
  3
                                
 72
   65
 73
    0
 40
0
  0
LTYPE
  2
__22
 70
   64
  3
                                
 72
   65
 73
    0
 40
0
  0
LTYPE
  2
__23
 70
   64
  3
                                
 72
   65
 73
    0
 40
0
  0
LTYPE
  2
__24
 70
   64
  3
                                
 72
   65
 73
    0
 40
0
  0
LTYPE
  2
__25
 70
   64
  3
                                
 72
   65
 73
    0
 40
0
  0
LTYPE
  2
__26
 70
   64
  3
                                
 72
   65
 73
    0
 40
0
  0
LTYPE
  2
__27
 70
   64
  3
                                
 72
   65
 73
    0
 40
0
  0
LTYPE
  2
__28
 70
   64
  3
                                
 72
   65
 73
    0
 40
0
  0
LTYPE
  2
__29
 70
   64
  3
                                
 72
   65
 73
    0
 40
0
  0
LTYPE
  2
__30
 70
   64
  3
                                
 72
   65
 73
    0
 40
0
  0
LTYPE
  2
__31
 70
   64
  3
                                
 72
   65
 73
    0
 40
0
  0
LTYPE
  2
__32
 70
   64
  3
                                
 72
   65
 73
    0
 40
0
  0
ENDTAB
  0
TABLE
  2
STYLE
  5
3
100
AcDbSymbolTable
 70
     1
  0
STYLE
  5
10
100
AcDbSymbolTableRecord
100
AcDbTextStyleTableRecord
  2
STANDARD
 70
     0
 40
0.0
 41
1.0
 50
0.0
 71
     0
 42
0.2
  3
txt
  4
bigfont.shx
  0
STYLE
  5
26
100
AcDbSymbolTableRecord
100
AcDbTextStyleTableRecord
  2
TATEGAKI
 70
    68
 40
0.0
 41
1.0
 50
0.0
 71
     0
 42
1.0
  3
txt
  4
bigfont.shx
  0
ENDTAB
  0
TABLE
  2
LAYER
 70
    2
  0
LAYER
  2
_0-0_
 70
   64
 62
    7
  6
CONTINUOUS
  0
LAYER
  2
ADD_LINE
 70
   64
 62
    7
  6
CONTINUOUS
  0
ENDTAB
  0
ENDSEC
  0
SECTION
  2
BLOCKS
  0
ENDSEC
  0
SECTION
  2
ENTITIES
  0
LINE
  8
_0-0_
  6
CONTINUOUS
 62
    4
 10
390012.90779794252
 20
280051.63177319168
 11
390912.90779794252
 21
280051.63177319168
  0
LINE
  8
_0-0_
  6
CONTINUOUS
 62
    4
 10
390012.90779794252
 20
280051.63177319168
 11
390012.90779794252
 21
280951.63177319168
  0
LINE
  8
_0-0_
  6
CONTINUOUS
 62
    4
 10
390912.90779794252
 20
280051.63177319168
 11
390912.90779794252
 21
280951.63177319168
  0
LINE
  8
_0-0_
  6
CONTINUOUS
 62
    4
 10
390012.90779794252
 20
280951.63177319168
 11
390912.90779794252
 21
280951.63177319168
  0
LINE
  8
_0-0_
  6
CONTINUOUS
 62
    4
 10
391110.39549187326
 20
280051.63177319168
 11
391130.39549187326
 21
280051.63177319168
  0
LINE
  8
_0-0_
  6
CONTINUOUS
 62
    4
 10
391110.39549187326
 20
280051.63177319168
 11
391110.39549187326
 21
280951.63177319168
  0
LINE
  8
_0-0_
  6
CONTINUOUS
 62
    4
 10
391130.39549187326
 20
280051.63177319168
 11
391130.39549187326
 21
280951.63177319168
  0
LINE
  8
_0-0_
  6
CONTINUOUS
 62
    4
 10
391110.39549187326
 20
280951.63177319168
 11
391130.39549187326
 21
280951.63177319168
  0
LINE
  8
_0-0_
  6
CONTINUOUS
 62
    4
 10
390012.90779794252
 20
280001.63177319168
 11
390012.90779794252
 21
279951.63177319168
  0
LINE
  8
_0-0_
  6
CONTINUOUS
 62
    4
 10
390912.90779794252
 20
280001.63177319168
 11
390912.90779794252
 21
279951.63177319168
  0
LINE
  8
_0-0_
  6
CONTINUOUS
 62
    4
 10
390012.90779794252
 20
279951.63177319168
 11
390912.90779794252
 21
279951.63177319168
  0
LINE
  8
_0-0_
  6
CONTINUOUS
 62
    4
 10
390015.50608895812
 20
279951.63177319168
 11
390015.50608895812
 21
279951.63177319168
  0
LINE
  8
_0-0_
  6
CONTINUOUS
 62
    4
 10
390015.50608895812
 20
279951.63177319168
 11
390015.46661507926
 21
279952.0829616916
  0
LINE
  8
_0-0_
  6
CONTINUOUS
 62
    4
 10
390015.46661507926
 20
279952.0829616916
 11
390015.34939283656
 21
279952.52044105722
  0
LINE
  8
_0-0_
  6
CONTINUOUS
 62
    4
 10
390015.34939283656
 20
279952.52044105722
 11
390015.1579839685
 21
279952.93091869948
  0
LINE
  8
_0-0_
  6
CONTINUOUS
 62
    4
 10
390015.1579839685
 20
279952.93091869948
 11
390014.89820433664
 21
279953.30192246288
  0
LINE
  8
_0-0_
  6
CONTINUOUS
 62
    4
 10
390014.89820433664
 20
279953.30192246288
 11
390014.57794721372
 21
279953.6221795858
  0
LINE
  8
_0-0_
  6
CONTINUOUS
 62
    4
 10
390014.57794721372
 20
279953.6221795858
 11
390014.20694345032
 21
279953.88195921766
  0
LINE
  8
_0-0_
  6
CONTINUOUS
 62
    4
 10
390014.20694345032
 20
279953.88195921766
 11
390013.79646580806
 21
279954.07336808572
  0
LINE
  8
_0-0_
  6
CONTINUOUS
 62
    4
 10
390013.79646580806
 20
279954.07336808572
 11
390013.35898644244
 21
279954.19059032842
  0
LINE
  8
_0-0_
  6
CONTINUOUS
 62
    4
 10
390013.35898644244
 20
279954.19059032842
 11
390012.90779794252
 21
279954.23006420728
  0
LINE
  8
_0-0_
  6
CONTINUOUS
 62
    4
 10
390012.90779794252
 20
279954.23006420728
 11
390012.4566094426
 21
279954.19059032842
  0
LINE
  8
_0-0_
  6
CONTINUOUS
 62
    4
 10
390012.4566094426
 20
279954.19059032842
 11
390012.01913007698
 21
279954.07336808572
  0
LINE
  8
_0-0_
  6
CONTINUOUS
 62
    4
 10
390012.01913007698
 20
279954.07336808572
 11
390011.60865243472
 21
279953.88195921766
  0
LINE
  8
_0-0_
  6
CONTINUOUS
 62
    4
 10
390011.60865243472
 20
279953.88195921766
 11
390011.23764867132
 21
279953.6221795858
  0
LINE
  8
_0-0_
  6
CONTINUOUS
 62
    4
 10
390011.23764867132
 20
279953.6221795858
 11
390010.9173915484
 21
279953.30192246288
  0
LINE
  8
_0-0_
  6
CONTINUOUS
 62
    4
 10
390010.9173915484
 20
279953.30192246288
 11
390010.65761191654
 21
279952.93091869948
  0
LINE
  8
_0-0_
  6
CONTINUOUS
 62
    4
 10
390010.65761191654
 20
279952.93091869948
 11
390010.46620304848
 21
279952.52044105722
  0
LINE
  8
_0-0_
  6
CONTINUOUS
 62
    4
 10
390010.46620304848
 20
279952.52044105722
 11
390010.34898080578
 21
279952.0829616916
  0
LINE
  8
_0-0_
  6
CONTINUOUS
 62
    4
 10
390010.34898080578
 20
279952.0829616916
 11
390010.30950692692
 21
279951.63177319168
  0
LINE
  8
_0-0_
  6
CONTINUOUS
 62
    4
 10
390010.30950692692
 20
279951.63177319168
 11
390010.34898080578
 21
279951.18058469176
  0
LINE
  8
_0-0_
  6
CONTINUOUS
 62
    4
 10
390010.34898080578
 20
279951.18058469176
 11
390010.46620304848
 21
279950.74310532614
  0
LINE
  8
_0-0_
  6
CONTINUOUS
 62
    4
 10
390010.46620304848
 20
279950.74310532614
 11
390010.65761191654
 21
279950.33262768388
  0
LINE
  8
_0-0_
  6
CONTINUOUS
 62
    4
 10
390010.65761191654
 20
279950.33262768388
 11
390010.9173915484
 21
279949.96162392048
  0
LINE
  8
_0-0_
  6
CONTINUOUS
 62
    4
 10
390010.9173915484
 20
279949.96162392048
 11
390011.23764867132
 21
279949.64136679756
  0
LINE
  8
_0-0_
  6
CONTINUOUS
 62
    4
 10
390011.23764867132
 20
279949.64136679756
 11
390011.60865243472
 21
279949.3815871657
  0
LINE
  8
_0-0_
  6
CONTINUOUS
 62
    4
 10
390011.60865243472
 20
279949.3815871657
 11
390012.01913007698
 21
279949.19017829763
  0
LINE
  8
_0-0_
  6
CONTINUOUS
 62
    4
 10
390012.01913007698
 20
279949.19017829763
 11
390012.4566094426
 21
279949.07295605494
  0
LINE
  8
_0-0_
  6
CONTINUOUS
 62
    4
 10
390012.4566094426
 20
279949.07295605494
 11
390012.90779794252
 21
279949.03348217608
  0
LINE
  8
_0-0_
  6
CONTINUOUS
 62
    4
 10
390012.90779794252
 20
279949.03348217608
 11
390013.35898644244
 21
279949.07295605494
  0
LINE
  8
_0-0_
  6
CONTINUOUS
 62
    4
 10
390013.35898644244
 20
279949.07295605494
 11
390013.79646580806
 21
279949.19017829763
  0
LINE
  8
_0-0_
  6
CONTINUOUS
 62
    4
 10
390013.79646580806
 20
279949.19017829763
 11
390014.20694345032
 21
279949.3815871657
  0
LINE
  8
_0-0_
  6
CONTINUOUS
 62
    4
 10
390014.20694345032
 20
279949.3815871657
 11
390014.57794721372
 21
279949.64136679756
  0
LINE
  8
_0-0_
  6
CONTINUOUS
 62
    4
 10
390014.57794721372
 20
279949.64136679756
 11
390014.89820433664
 21
279949.96162392048
  0
LINE
  8
_0-0_
  6
CONTINUOUS
 62
    4
 10
390014.89820433664
 20
279949.96162392048
 11
390015.1579839685
 21
279950.33262768388
  0
LINE
  8
_0-0_
  6
CONTINUOUS
 62
    4
 10
390015.1579839685
 20
279950.33262768388
 11
390015.34939283656
 21
279950.74310532614
  0
LINE
  8
_0-0_
  6
CONTINUOUS
 62
    4
 10
390015.34939283656
 20
279950.74310532614
 11
390015.46661507926
 21
279951.18058469176
  0
LINE
  8
_0-0_
  6
CONTINUOUS
 62
    4
 10
390015.46661507926
 20
279951.18058469176
 11
390015.50608895812
 21
279951.63177319168
  0
LINE
  8
_0-0_
  6
CONTINUOUS
 62
    4
 10
390015.50608895812
 20
279951.63177319168
 11
390015.50608895812
 21
279951.63177319168
  0
LINE
  8
_0-0_
  6
CONTINUOUS
 62
    4
 10
390915.50608895812
 20
279951.63177319168
 11
390915.50608895812
 21
279951.63177319168
  0
LINE
  8
_0-0_
  6
CONTINUOUS
 62
    4
 10
390915.50608895812
 20
279951.63177319168
 11
390915.46661507926
 21
279952.0829616916
  0
LINE
  8
_0-0_
  6
CONTINUOUS
 62
    4
 10
390915.46661507926
 20
279952.0829616916
 11
390915.34939283656
 21
279952.52044105722
  0
LINE
  8
_0-0_
  6
CONTINUOUS
 62
    4
 10
390915.34939283656
 20
279952.52044105722
 11
390915.1579839685
 21
279952.93091869948
  0
LINE
  8
_0-0_
  6
CONTINUOUS
 62
    4
 10
390915.1579839685
 20
279952.93091869948
 11
390914.89820433664
 21
279953.30192246288
  0
LINE
  8
_0-0_
  6
CONTINUOUS
 62
    4
 10
390914.89820433664
 20
279953.30192246288
 11
390914.57794721372
 21
279953.6221795858
  0
LINE
  8
_0-0_
  6
CONTINUOUS
 62
    4
 10
390914.57794721372
 20
279953.6221795858
 11
390914.20694345032
 21
279953.88195921766
  0
LINE
  8
_0-0_
  6
CONTINUOUS
 62
    4
 10
390914.20694345032
 20
279953.88195921766
 11
390913.79646580806
 21
279954.07336808572
  0
LINE
  8
_0-0_
  6
CONTINUOUS
 62
    4
 10
390913.79646580806
 20
279954.07336808572
 11
390913.35898644244
 21
279954.19059032842
  0
LINE
  8
_0-0_
  6
CONTINUOUS
 62
    4
 10
390913.35898644244
 20
279954.19059032842
 11
390912.90779794252
 21
279954.23006420728
  0
LINE
  8
_0-0_
  6
CONTINUOUS
 62
    4
 10
390912.90779794252
 20
279954.23006420728
 11
390912.4566094426
 21
279954.19059032842
  0
LINE
  8
_0-0_
  6
CONTINUOUS
 62
    4
 10
390912.4566094426
 20
279954.19059032842
 11
390912.01913007698
 21
279954.07336808572
  0
LINE
  8
_0-0_
  6
CONTINUOUS
 62
    4
 10
390912.01913007698
 20
279954.07336808572
 11
390911.60865243472
 21
279953.88195921766
  0
LINE
  8
_0-0_
  6
CONTINUOUS
 62
    4
 10
390911.60865243472
 20
279953.88195921766
 11
390911.23764867132
 21
279953.6221795858
  0
LINE
  8
_0-0_
  6
CONTINUOUS
 62
    4
 10
390911.23764867132
 20
279953.6221795858
 11
390910.9173915484
 21
279953.30192246288
  0
LINE
  8
_0-0_
  6
CONTINUOUS
 62
    4
 10
390910.9173915484
 20
279953.30192246288
 11
390910.65761191654
 21
279952.93091869948
  0
LINE
  8
_0-0_
  6
CONTINUOUS
 62
    4
 10
390910.65761191654
 20
279952.93091869948
 11
390910.46620304848
 21
279952.52044105722
  0
LINE
  8
_0-0_
  6
CONTINUOUS
 62
    4
 10
390910.46620304848
 20
279952.52044105722
 11
390910.34898080578
 21
279952.0829616916
  0
LINE
  8
_0-0_
  6
CONTINUOUS
 62
    4
 10
390910.34898080578
 20
279952.0829616916
 11
390910.30950692692
 21
279951.63177319168
  0
LINE
  8
_0-0_
  6
CONTINUOUS
 62
    4
 10
390910.30950692692
 20
279951.63177319168
 11
390910.34898080578
 21
279951.18058469176
  0
LINE
  8
_0-0_
  6
CONTINUOUS
 62
    4
 10
390910.34898080578
 20
279951.18058469176
 11
390910.46620304848
 21
279950.74310532614
  0
LINE
  8
_0-0_
  6
CONTINUOUS
 62
    4
 10
390910.46620304848
 20
279950.74310532614
 11
390910.65761191654
 21
279950.33262768388
  0
LINE
  8
_0-0_
  6
CONTINUOUS
 62
    4
 10
390910.65761191654
 20
279950.33262768388
 11
390910.9173915484
 21
279949.96162392048
  0
LINE
  8
_0-0_
  6
CONTINUOUS
 62
    4
 10
390910.9173915484
 20
279949.96162392048
 11
390911.23764867132
 21
279949.64136679756
  0
LINE
  8
_0-0_
  6
CONTINUOUS
 62
    4
 10
390911.23764867132
 20
279949.64136679756
 11
390911.60865243472
 21
279949.3815871657
  0
LINE
  8
_0-0_
  6
CONTINUOUS
 62
    4
 10
390911.60865243472
 20
279949.3815871657
 11
390912.01913007698
 21
279949.19017829763
  0
LINE
  8
_0-0_
  6
CONTINUOUS
 62
    4
 10
390912.01913007698
 20
279949.19017829763
 11
390912.4566094426
 21
279949.07295605494
  0
LINE
  8
_0-0_
  6
CONTINUOUS
 62
    4
 10
390912.4566094426
 20
279949.07295605494
 11
390912.90779794252
 21
279949.03348217608
  0
LINE
  8
_0-0_
  6
CONTINUOUS
 62
    4
 10
390912.90779794252
 20
279949.03348217608
 11
390913.35898644244
 21
279949.07295605494
  0
LINE
  8
_0-0_
  6
CONTINUOUS
 62
    4
 10
390913.35898644244
 20
279949.07295605494
 11
390913.79646580806
 21
279949.19017829763
  0
LINE
  8
_0-0_
  6
CONTINUOUS
 62
    4
 10
390913.79646580806
 20
279949.19017829763
 11
390914.20694345032
 21
279949.3815871657
  0
LINE
  8
_0-0_
  6
CONTINUOUS
 62
    4
 10
390914.20694345032
 20
279949.3815871657
 11
390914.57794721372
 21
279949.64136679756
  0
LINE
  8
_0-0_
  6
CONTINUOUS
 62
    4
 10
390914.57794721372
 20
279949.64136679756
 11
390914.89820433664
 21
279949.96162392048
  0
LINE
  8
_0-0_
  6
CONTINUOUS
 62
    4
 10
390914.89820433664
 20
279949.96162392048
 11
390915.1579839685
 21
279950.33262768388
  0
LINE
  8
_0-0_
  6
CONTINUOUS
 62
    4
 10
390915.1579839685
 20
279950.33262768388
 11
390915.34939283656
 21
279950.74310532614
  0
LINE
  8
_0-0_
  6
CONTINUOUS
 62
    4
 10
390915.34939283656
 20
279950.74310532614
 11
390915.46661507926
 21
279951.18058469176
  0
LINE
  8
_0-0_
  6
CONTINUOUS
 62
    4
 10
390915.46661507926
 20
279951.18058469176
 11
390915.50608895812
 21
279951.63177319168
  0
LINE
  8
_0-0_
  6
CONTINUOUS
 62
    4
 10
390915.50608895812
 20
279951.63177319168
 11
390915.50608895812
 21
279951.63177319168
  0
TEXT
  8
_0-0_
 62
    7
 10
390436.61482919252
 20
279952.63177319168
 40
35.842222222222226
 41
0.9781003937007872
 50
0
  1
900
  0
LINE
  8
_0-0_
  6
CONTINUOUS
 62
    4
 10
390962.90779794252
 20
280951.63177319168
 11
391012.90779794252
 21
280951.63177319168
  0
LINE
  8
_0-0_
  6
CONTINUOUS
 62
    4
 10
390962.90779794252
 20
280051.63177319168
 11
391012.90779794252
 21
280051.63177319168
  0
LINE
  8
_0-0_
  6
CONTINUOUS
 62
    4
 10
391012.90779794252
 20
280951.63177319168
 11
391012.90779794252
 21
280051.63177319168
  0
LINE
  8
_0-0_
  6
CONTINUOUS
 62
    4
 10
391015.50608895812
 20
280951.63177319168
 11
391015.50608895812
 21
280951.63177319168
  0
LINE
  8
_0-0_
  6
CONTINUOUS
 62
    4
 10
391015.50608895812
 20
280951.63177319168
 11
391015.46661507926
 21
280952.0829616916
  0
LINE
  8
_0-0_
  6
CONTINUOUS
 62
    4
 10
391015.46661507926
 20
280952.0829616916
 11
391015.34939283656
 21
280952.52044105722
  0
LINE
  8
_0-0_
  6
CONTINUOUS
 62
    4
 10
391015.34939283656
 20
280952.52044105722
 11
391015.1579839685
 21
280952.93091869948
  0
LINE
  8
_0-0_
  6
CONTINUOUS
 62
    4
 10
391015.1579839685
 20
280952.93091869948
 11
391014.89820433664
 21
280953.30192246288
  0
LINE
  8
_0-0_
  6
CONTINUOUS
 62
    4
 10
391014.89820433664
 20
280953.30192246288
 11
391014.57794721372
 21
280953.6221795858
  0
LINE
  8
_0-0_
  6
CONTINUOUS
 62
    4
 10
391014.57794721372
 20
280953.6221795858
 11
391014.20694345032
 21
280953.88195921766
  0
LINE
  8
_0-0_
  6
CONTINUOUS
 62
    4
 10
391014.20694345032
 20
280953.88195921766
 11
391013.79646580806
 21
280954.07336808572
  0
LINE
  8
_0-0_
  6
CONTINUOUS
 62
    4
 10
391013.79646580806
 20
280954.07336808572
 11
391013.35898644244
 21
280954.19059032842
  0
LINE
  8
_0-0_
  6
CONTINUOUS
 62
    4
 10
391013.35898644244
 20
280954.19059032842
 11
391012.90779794252
 21
280954.23006420728
  0
LINE
  8
_0-0_
  6
CONTINUOUS
 62
    4
 10
391012.90779794252
 20
280954.23006420728
 11
391012.4566094426
 21
280954.19059032842
  0
LINE
  8
_0-0_
  6
CONTINUOUS
 62
    4
 10
391012.4566094426
 20
280954.19059032842
 11
391012.01913007698
 21
280954.07336808572
  0
LINE
  8
_0-0_
  6
CONTINUOUS
 62
    4
 10
391012.01913007698
 20
280954.07336808572
 11
391011.60865243472
 21
280953.88195921766
  0
LINE
  8
_0-0_
  6
CONTINUOUS
 62
    4
 10
391011.60865243472
 20
280953.88195921766
 11
391011.23764867132
 21
280953.6221795858
  0
LINE
  8
_0-0_
  6
CONTINUOUS
 62
    4
 10
391011.23764867132
 20
280953.6221795858
 11
391010.9173915484
 21
280953.30192246288
  0
LINE
  8
_0-0_
  6
CONTINUOUS
 62
    4
 10
391010.9173915484
 20
280953.30192246288
 11
391010.65761191654
 21
280952.93091869948
  0
LINE
  8
_0-0_
  6
CONTINUOUS
 62
    4
 10
391010.65761191654
 20
280952.93091869948
 11
391010.46620304848
 21
280952.52044105722
  0
LINE
  8
_0-0_
  6
CONTINUOUS
 62
    4
 10
391010.46620304848
 20
280952.52044105722
 11
391010.34898080578
 21
280952.0829616916
  0
LINE
  8
_0-0_
  6
CONTINUOUS
 62
    4
 10
391010.34898080578
 20
280952.0829616916
 11
391010.30950692692
 21
280951.63177319168
  0
LINE
  8
_0-0_
  6
CONTINUOUS
 62
    4
 10
391010.30950692692
 20
280951.63177319168
 11
391010.34898080578
 21
280951.18058469176
  0
LINE
  8
_0-0_
  6
CONTINUOUS
 62
    4
 10
391010.34898080578
 20
280951.18058469176
 11
391010.46620304848
 21
280950.74310532614
  0
LINE
  8
_0-0_
  6
CONTINUOUS
 62
    4
 10
391010.46620304848
 20
280950.74310532614
 11
391010.65761191654
 21
280950.33262768388
  0
LINE
  8
_0-0_
  6
CONTINUOUS
 62
    4
 10
391010.65761191654
 20
280950.33262768388
 11
391010.9173915484
 21
280949.96162392048
  0
LINE
  8
_0-0_
  6
CONTINUOUS
 62
    4
 10
391010.9173915484
 20
280949.96162392048
 11
391011.23764867132
 21
280949.64136679756
  0
LINE
  8
_0-0_
  6
CONTINUOUS
 62
    4
 10
391011.23764867132
 20
280949.64136679756
 11
391011.60865243472
 21
280949.3815871657
  0
LINE
  8
_0-0_
  6
CONTINUOUS
 62
    4
 10
391011.60865243472
 20
280949.3815871657
 11
391012.01913007698
 21
280949.19017829763
  0
LINE
  8
_0-0_
  6
CONTINUOUS
 62
    4
 10
391012.01913007698
 20
280949.19017829763
 11
391012.4566094426
 21
280949.07295605494
  0
LINE
  8
_0-0_
  6
CONTINUOUS
 62
    4
 10
391012.4566094426
 20
280949.07295605494
 11
391012.90779794252
 21
280949.03348217608
  0
LINE
  8
_0-0_
  6
CONTINUOUS
 62
    4
 10
391012.90779794252
 20
280949.03348217608
 11
391013.35898644244
 21
280949.07295605494
  0
LINE
  8
_0-0_
  6
CONTINUOUS
 62
    4
 10
391013.35898644244
 20
280949.07295605494
 11
391013.79646580806
 21
280949.19017829763
  0
LINE
  8
_0-0_
  6
CONTINUOUS
 62
    4
 10
391013.79646580806
 20
280949.19017829763
 11
391014.20694345032
 21
280949.3815871657
  0
LINE
  8
_0-0_
  6
CONTINUOUS
 62
    4
 10
391014.20694345032
 20
280949.3815871657
 11
391014.57794721372
 21
280949.64136679756
  0
LINE
  8
_0-0_
  6
CONTINUOUS
 62
    4
 10
391014.57794721372
 20
280949.64136679756
 11
391014.89820433664
 21
280949.96162392048
  0
LINE
  8
_0-0_
  6
CONTINUOUS
 62
    4
 10
391014.89820433664
 20
280949.96162392048
 11
391015.1579839685
 21
280950.33262768388
  0
LINE
  8
_0-0_
  6
CONTINUOUS
 62
    4
 10
391015.1579839685
 20
280950.33262768388
 11
391015.34939283656
 21
280950.74310532614
  0
LINE
  8
_0-0_
  6
CONTINUOUS
 62
    4
 10
391015.34939283656
 20
280950.74310532614
 11
391015.46661507926
 21
280951.18058469176
  0
LINE
  8
_0-0_
  6
CONTINUOUS
 62
    4
 10
391015.46661507926
 20
280951.18058469176
 11
391015.50608895812
 21
280951.63177319168
  0
LINE
  8
_0-0_
  6
CONTINUOUS
 62
    4
 10
391015.50608895812
 20
280951.63177319168
 11
391015.50608895812
 21
280951.63177319168
  0
LINE
  8
_0-0_
  6
CONTINUOUS
 62
    4
 10
391015.50608895812
 20
280051.63177319168
 11
391015.50608895812
 21
280051.63177319168
  0
LINE
  8
_0-0_
  6
CONTINUOUS
 62
    4
 10
391015.50608895812
 20
280051.63177319168
 11
391015.46661507926
 21
280052.0829616916
  0
LINE
  8
_0-0_
  6
CONTINUOUS
 62
    4
 10
391015.46661507926
 20
280052.0829616916
 11
391015.34939283656
 21
280052.52044105722
  0
LINE
  8
_0-0_
  6
CONTINUOUS
 62
    4
 10
391015.34939283656
 20
280052.52044105722
 11
391015.1579839685
 21
280052.93091869948
  0
LINE
  8
_0-0_
  6
CONTINUOUS
 62
    4
 10
391015.1579839685
 20
280052.93091869948
 11
391014.89820433664
 21
280053.30192246288
  0
LINE
  8
_0-0_
  6
CONTINUOUS
 62
    4
 10
391014.89820433664
 20
280053.30192246288
 11
391014.57794721372
 21
280053.6221795858
  0
LINE
  8
_0-0_
  6
CONTINUOUS
 62
    4
 10
391014.57794721372
 20
280053.6221795858
 11
391014.20694345032
 21
280053.88195921766
  0
LINE
  8
_0-0_
  6
CONTINUOUS
 62
    4
 10
391014.20694345032
 20
280053.88195921766
 11
391013.79646580806
 21
280054.07336808572
  0
LINE
  8
_0-0_
  6
CONTINUOUS
 62
    4
 10
391013.79646580806
 20
280054.07336808572
 11
391013.35898644244
 21
280054.19059032842
  0
LINE
  8
_0-0_
  6
CONTINUOUS
 62
    4
 10
391013.35898644244
 20
280054.19059032842
 11
391012.90779794252
 21
280054.23006420728
  0
LINE
  8
_0-0_
  6
CONTINUOUS
 62
    4
 10
391012.90779794252
 20
280054.23006420728
 11
391012.4566094426
 21
280054.19059032842
  0
LINE
  8
_0-0_
  6
CONTINUOUS
 62
    4
 10
391012.4566094426
 20
280054.19059032842
 11
391012.01913007698
 21
280054.07336808572
  0
LINE
  8
_0-0_
  6
CONTINUOUS
 62
    4
 10
391012.01913007698
 20
280054.07336808572
 11
391011.60865243472
 21
280053.88195921766
  0
LINE
  8
_0-0_
  6
CONTINUOUS
 62
    4
 10
391011.60865243472
 20
280053.88195921766
 11
391011.23764867132
 21
280053.6221795858
  0
LINE
  8
_0-0_
  6
CONTINUOUS
 62
    4
 10
391011.23764867132
 20
280053.6221795858
 11
391010.9173915484
 21
280053.30192246288
  0
LINE
  8
_0-0_
  6
CONTINUOUS
 62
    4
 10
391010.9173915484
 20
280053.30192246288
 11
391010.65761191654
 21
280052.93091869948
  0
LINE
  8
_0-0_
  6
CONTINUOUS
 62
    4
 10
391010.65761191654
 20
280052.93091869948
 11
391010.46620304848
 21
280052.52044105722
  0
LINE
  8
_0-0_
  6
CONTINUOUS
 62
    4
 10
391010.46620304848
 20
280052.52044105722
 11
391010.34898080578
 21
280052.0829616916
  0
LINE
  8
_0-0_
  6
CONTINUOUS
 62
    4
 10
391010.34898080578
 20
280052.0829616916
 11
391010.30950692692
 21
280051.63177319168
  0
LINE
  8
_0-0_
  6
CONTINUOUS
 62
    4
 10
391010.30950692692
 20
280051.63177319168
 11
391010.34898080578
 21
280051.18058469176
  0
LINE
  8
_0-0_
  6
CONTINUOUS
 62
    4
 10
391010.34898080578
 20
280051.18058469176
 11
391010.46620304848
 21
280050.74310532614
  0
LINE
  8
_0-0_
  6
CONTINUOUS
 62
    4
 10
391010.46620304848
 20
280050.74310532614
 11
391010.65761191654
 21
280050.33262768388
  0
LINE
  8
_0-0_
  6
CONTINUOUS
 62
    4
 10
391010.65761191654
 20
280050.33262768388
 11
391010.9173915484
 21
280049.96162392048
  0
LINE
  8
_0-0_
  6
CONTINUOUS
 62
    4
 10
391010.9173915484
 20
280049.96162392048
 11
391011.23764867132
 21
280049.64136679756
  0
LINE
  8
_0-0_
  6
CONTINUOUS
 62
    4
 10
391011.23764867132
 20
280049.64136679756
 11
391011.60865243472
 21
280049.3815871657
  0
LINE
  8
_0-0_
  6
CONTINUOUS
 62
    4
 10
391011.60865243472
 20
280049.3815871657
 11
391012.01913007698
 21
280049.19017829763
  0
LINE
  8
_0-0_
  6
CONTINUOUS
 62
    4
 10
391012.01913007698
 20
280049.19017829763
 11
391012.4566094426
 21
280049.07295605494
  0
LINE
  8
_0-0_
  6
CONTINUOUS
 62
    4
 10
391012.4566094426
 20
280049.07295605494
 11
391012.90779794252
 21
280049.03348217608
  0
LINE
  8
_0-0_
  6
CONTINUOUS
 62
    4
 10
391012.90779794252
 20
280049.03348217608
 11
391013.35898644244
 21
280049.07295605494
  0
LINE
  8
_0-0_
  6
CONTINUOUS
 62
    4
 10
391013.35898644244
 20
280049.07295605494
 11
391013.79646580806
 21
280049.19017829763
  0
LINE
  8
_0-0_
  6
CONTINUOUS
 62
    4
 10
391013.79646580806
 20
280049.19017829763
 11
391014.20694345032
 21
280049.3815871657
  0
LINE
  8
_0-0_
  6
CONTINUOUS
 62
    4
 10
391014.20694345032
 20
280049.3815871657
 11
391014.57794721372
 21
280049.64136679756
  0
LINE
  8
_0-0_
  6
CONTINUOUS
 62
    4
 10
391014.57794721372
 20
280049.64136679756
 11
391014.89820433664
 21
280049.96162392048
  0
LINE
  8
_0-0_
  6
CONTINUOUS
 62
    4
 10
391014.89820433664
 20
280049.96162392048
 11
391015.1579839685
 21
280050.33262768388
  0
LINE
  8
_0-0_
  6
CONTINUOUS
 62
    4
 10
391015.1579839685
 20
280050.33262768388
 11
391015.34939283656
 21
280050.74310532614
  0
LINE
  8
_0-0_
  6
CONTINUOUS
 62
    4
 10
391015.34939283656
 20
280050.74310532614
 11
391015.46661507926
 21
280051.18058469176
  0
LINE
  8
_0-0_
  6
CONTINUOUS
 62
    4
 10
391015.46661507926
 20
280051.18058469176
 11
391015.50608895812
 21
280051.63177319168
  0
LINE
  8
_0-0_
  6
CONTINUOUS
 62
    4
 10
391015.50608895812
 20
280051.63177319168
 11
391015.50608895812
 21
280051.63177319168
  0
TEXT
  8
_0-0_
 62
    7
 10
391011.90779794252
 20
280475.33880444168
 40
35.842222222222226
 41
0.9781003937007872
 50
90
  1
900
  0
LINE
  8
_0-0_
  6
CONTINUOUS
 62
    4
 10
391130.39549187326
 20
280001.63177319168
 11
391130.39549187326
 21
279951.63177319168
  0
LINE
  8
_0-0_
  6
CONTINUOUS
 62
    4
 10
391110.39549187326
 20
280001.63177319168
 11
391110.39549187326
 21
279951.63177319168
  0
LINE
  8
_0-0_
  6
CONTINUOUS
 62
    4
 10
391130.39549187326
 20
279951.63177319168
 11
391110.39549187326
 21
279951.63177319168
  0
LINE
  8
_0-0_
  6
CONTINUOUS
 62
    4
 10
391132.99378288887
 20
279951.63177319168
 11
391132.99378288887
 21
279951.63177319168
  0
LINE
  8
_0-0_
  6
CONTINUOUS
 62
    4
 10
391132.99378288887
 20
279951.63177319168
 11
391132.95430901001
 21
279952.0829616916
  0
LINE
  8
_0-0_
  6
CONTINUOUS
 62
    4
 10
391132.95430901001
 20
279952.0829616916
 11
391132.83708676731
 21
279952.52044105722
  0
LINE
  8
_0-0_
  6
CONTINUOUS
 62
    4
 10
391132.83708676731
 20
279952.52044105722
 11
391132.64567789924
 21
279952.93091869948
  0
LINE
  8
_0-0_
  6
CONTINUOUS
 62
    4
 10
391132.64567789924
 20
279952.93091869948
 11
391132.38589826738
 21
279953.30192246288
  0
LINE
  8
_0-0_
  6
CONTINUOUS
 62
    4
 10
391132.38589826738
 20
279953.30192246288
 11
391132.06564114447
 21
279953.6221795858
  0
LINE
  8
_0-0_
  6
CONTINUOUS
 62
    4
 10
391132.06564114447
 20
279953.6221795858
 11
391131.69463738106
 21
279953.88195921766
  0
LINE
  8
_0-0_
  6
CONTINUOUS
 62
    4
 10
391131.69463738106
 20
279953.88195921766
 11
391131.2841597388
 21
279954.07336808572
  0
LINE
  8
_0-0_
  6
CONTINUOUS
 62
    4
 10
391131.2841597388
 20
279954.07336808572
 11
391130.84668037319
 21
279954.19059032842
  0
LINE
  8
_0-0_
  6
CONTINUOUS
 62
    4
 10
391130.84668037319
 20
279954.19059032842
 11
391130.39549187326
 21
279954.23006420728
  0
LINE
  8
_0-0_
  6
CONTINUOUS
 62
    4
 10
391130.39549187326
 20
279954.23006420728
 11
391129.94430337334
 21
279954.19059032842
  0
LINE
  8
_0-0_
  6
CONTINUOUS
 62
    4
 10
391129.94430337334
 20
279954.19059032842
 11
391129.50682400772
 21
279954.07336808572
  0
LINE
  8
_0-0_
  6
CONTINUOUS
 62
    4
 10
391129.50682400772
 20
279954.07336808572
 11
391129.09634636546
 21
279953.88195921766
  0
LINE
  8
_0-0_
  6
CONTINUOUS
 62
    4
 10
391129.09634636546
 20
279953.88195921766
 11
391128.72534260206
 21
279953.6221795858
  0
LINE
  8
_0-0_
  6
CONTINUOUS
 62
    4
 10
391128.72534260206
 20
279953.6221795858
 11
391128.40508547914
 21
279953.30192246288
  0
LINE
  8
_0-0_
  6
CONTINUOUS
 62
    4
 10
391128.40508547914
 20
279953.30192246288
 11
391128.14530584728
 21
279952.93091869948
  0
LINE
  8
_0-0_
  6
CONTINUOUS
 62
    4
 10
391128.14530584728
 20
279952.93091869948
 11
391127.95389697922
 21
279952.52044105722
  0
LINE
  8
_0-0_
  6
CONTINUOUS
 62
    4
 10
391127.95389697922
 20
279952.52044105722
 11
391127.83667473652
 21
279952.0829616916
  0
LINE
  8
_0-0_
  6
CONTINUOUS
 62
    4
 10
391127.83667473652
 20
279952.0829616916
 11
391127.79720085766
 21
279951.63177319168
  0
LINE
  8
_0-0_
  6
CONTINUOUS
 62
    4
 10
391127.79720085766
 20
279951.63177319168
 11
391127.83667473652
 21
279951.18058469176
  0
LINE
  8
_0-0_
  6
CONTINUOUS
 62
    4
 10
391127.83667473652
 20
279951.18058469176
 11
391127.95389697922
 21
279950.74310532614
  0
LINE
  8
_0-0_
  6
CONTINUOUS
 62
    4
 10
391127.95389697922
 20
279950.74310532614
 11
391128.14530584728
 21
279950.33262768388
  0
LINE
  8
_0-0_
  6
CONTINUOUS
 62
    4
 10
391128.14530584728
 20
279950.33262768388
 11
391128.40508547914
 21
279949.96162392048
  0
LINE
  8
_0-0_
  6
CONTINUOUS
 62
    4
 10
391128.40508547914
 20
279949.96162392048
 11
391128.72534260206
 21
279949.64136679756
  0
LINE
  8
_0-0_
  6
CONTINUOUS
 62
    4
 10
391128.72534260206
 20
279949.64136679756
 11
391129.09634636546
 21
279949.3815871657
  0
LINE
  8
_0-0_
  6
CONTINUOUS
 62
    4
 10
391129.09634636546
 20
279949.3815871657
 11
391129.50682400772
 21
279949.19017829763
  0
LINE
  8
_0-0_
  6
CONTINUOUS
 62
    4
 10
391129.50682400772
 20
279949.19017829763
 11
391129.94430337334
 21
279949.07295605494
  0
LINE
  8
_0-0_
  6
CONTINUOUS
 62
    4
 10
391129.94430337334
 20
279949.07295605494
 11
391130.39549187326
 21
279949.03348217608
  0
LINE
  8
_0-0_
  6
CONTINUOUS
 62
    4
 10
391130.39549187326
 20
279949.03348217608
 11
391130.84668037319
 21
279949.07295605494
  0
LINE
  8
_0-0_
  6
CONTINUOUS
 62
    4
 10
391130.84668037319
 20
279949.07295605494
 11
391131.2841597388
 21
279949.19017829763
  0
LINE
  8
_0-0_
  6
CONTINUOUS
 62
    4
 10
391131.2841597388
 20
279949.19017829763
 11
391131.69463738106
 21
279949.3815871657
  0
LINE
  8
_0-0_
  6
CONTINUOUS
 62
    4
 10
391131.69463738106
 20
279949.3815871657
 11
391132.06564114447
 21
279949.64136679756
  0
LINE
  8
_0-0_
  6
CONTINUOUS
 62
    4
 10
391132.06564114447
 20
279949.64136679756
 11
391132.38589826738
 21
279949.96162392048
  0
LINE
  8
_0-0_
  6
CONTINUOUS
 62
    4
 10
391132.38589826738
 20
279949.96162392048
 11
391132.64567789924
 21
279950.33262768388
  0
LINE
  8
_0-0_
  6
CONTINUOUS
 62
    4
 10
391132.64567789924
 20
279950.33262768388
 11
391132.83708676731
 21
279950.74310532614
  0
LINE
  8
_0-0_
  6
CONTINUOUS
 62
    4
 10
391132.83708676731
 20
279950.74310532614
 11
391132.95430901001
 21
279951.18058469176
  0
LINE
  8
_0-0_
  6
CONTINUOUS
 62
    4
 10
391132.95430901001
 20
279951.18058469176
 11
391132.99378288887
 21
279951.63177319168
  0
LINE
  8
_0-0_
  6
CONTINUOUS
 62
    4
 10
391132.99378288887
 20
279951.63177319168
 11
391132.99378288887
 21
279951.63177319168
  0
LINE
  8
_0-0_
  6
CONTINUOUS
 62
    4
 10
391112.99378288887
 20
279951.63177319168
 11
391112.99378288887
 21
279951.63177319168
  0
LINE
  8
_0-0_
  6
CONTINUOUS
 62
    4
 10
391112.99378288887
 20
279951.63177319168
 11
391112.95430901001
 21
279952.0829616916
  0
LINE
  8
_0-0_
  6
CONTINUOUS
 62
    4
 10
391112.95430901001
 20
279952.0829616916
 11
391112.83708676731
 21
279952.52044105722
  0
LINE
  8
_0-0_
  6
CONTINUOUS
 62
    4
 10
391112.83708676731
 20
279952.52044105722
 11
391112.64567789924
 21
279952.93091869948
  0
LINE
  8
_0-0_
  6
CONTINUOUS
 62
    4
 10
391112.64567789924
 20
279952.93091869948
 11
391112.38589826738
 21
279953.30192246288
  0
LINE
  8
_0-0_
  6
CONTINUOUS
 62
    4
 10
391112.38589826738
 20
279953.30192246288
 11
391112.06564114447
 21
279953.6221795858
  0
LINE
  8
_0-0_
  6
CONTINUOUS
 62
    4
 10
391112.06564114447
 20
279953.6221795858
 11
391111.69463738106
 21
279953.88195921766
  0
LINE
  8
_0-0_
  6
CONTINUOUS
 62
    4
 10
391111.69463738106
 20
279953.88195921766
 11
391111.2841597388
 21
279954.07336808572
  0
LINE
  8
_0-0_
  6
CONTINUOUS
 62
    4
 10
391111.2841597388
 20
279954.07336808572
 11
391110.84668037319
 21
279954.19059032842
  0
LINE
  8
_0-0_
  6
CONTINUOUS
 62
    4
 10
391110.84668037319
 20
279954.19059032842
 11
391110.39549187326
 21
279954.23006420728
  0
LINE
  8
_0-0_
  6
CONTINUOUS
 62
    4
 10
391110.39549187326
 20
279954.23006420728
 11
391109.94430337334
 21
279954.19059032842
  0
LINE
  8
_0-0_
  6
CONTINUOUS
 62
    4
 10
391109.94430337334
 20
279954.19059032842
 11
391109.50682400772
 21
279954.07336808572
  0
LINE
  8
_0-0_
  6
CONTINUOUS
 62
    4
 10
391109.50682400772
 20
279954.07336808572
 11
391109.09634636546
 21
279953.88195921766
  0
LINE
  8
_0-0_
  6
CONTINUOUS
 62
    4
 10
391109.09634636546
 20
279953.88195921766
 11
391108.72534260206
 21
279953.6221795858
  0
LINE
  8
_0-0_
  6
CONTINUOUS
 62
    4
 10
391108.72534260206
 20
279953.6221795858
 11
391108.40508547914
 21
279953.30192246288
  0
LINE
  8
_0-0_
  6
CONTINUOUS
 62
    4
 10
391108.40508547914
 20
279953.30192246288
 11
391108.14530584728
 21
279952.93091869948
  0
LINE
  8
_0-0_
  6
CONTINUOUS
 62
    4
 10
391108.14530584728
 20
279952.93091869948
 11
391107.95389697922
 21
279952.52044105722
  0
LINE
  8
_0-0_
  6
CONTINUOUS
 62
    4
 10
391107.95389697922
 20
279952.52044105722
 11
391107.83667473652
 21
279952.0829616916
  0
LINE
  8
_0-0_
  6
CONTINUOUS
 62
    4
 10
391107.83667473652
 20
279952.0829616916
 11
391107.79720085766
 21
279951.63177319168
  0
LINE
  8
_0-0_
  6
CONTINUOUS
 62
    4
 10
391107.79720085766
 20
279951.63177319168
 11
391107.83667473652
 21
279951.18058469176
  0
LINE
  8
_0-0_
  6
CONTINUOUS
 62
    4
 10
391107.83667473652
 20
279951.18058469176
 11
391107.95389697922
 21
279950.74310532614
  0
LINE
  8
_0-0_
  6
CONTINUOUS
 62
    4
 10
391107.95389697922
 20
279950.74310532614
 11
391108.14530584728
 21
279950.33262768388
  0
LINE
  8
_0-0_
  6
CONTINUOUS
 62
    4
 10
391108.14530584728
 20
279950.33262768388
 11
391108.40508547914
 21
279949.96162392048
  0
LINE
  8
_0-0_
  6
CONTINUOUS
 62
    4
 10
391108.40508547914
 20
279949.96162392048
 11
391108.72534260206
 21
279949.64136679756
  0
LINE
  8
_0-0_
  6
CONTINUOUS
 62
    4
 10
391108.72534260206
 20
279949.64136679756
 11
391109.09634636546
 21
279949.3815871657
  0
LINE
  8
_0-0_
  6
CONTINUOUS
 62
    4
 10
391109.09634636546
 20
279949.3815871657
 11
391109.50682400772
 21
279949.19017829763
  0
LINE
  8
_0-0_
  6
CONTINUOUS
 62
    4
 10
391109.50682400772
 20
279949.19017829763
 11
391109.94430337334
 21
279949.07295605494
  0
LINE
  8
_0-0_
  6
CONTINUOUS
 62
    4
 10
391109.94430337334
 20
279949.07295605494
 11
391110.39549187326
 21
279949.03348217608
  0
LINE
  8
_0-0_
  6
CONTINUOUS
 62
    4
 10
391110.39549187326
 20
279949.03348217608
 11
391110.84668037319
 21
279949.07295605494
  0
LINE
  8
_0-0_
  6
CONTINUOUS
 62
    4
 10
391110.84668037319
 20
279949.07295605494
 11
391111.2841597388
 21
279949.19017829763
  0
LINE
  8
_0-0_
  6
CONTINUOUS
 62
    4
 10
391111.2841597388
 20
279949.19017829763
 11
391111.69463738106
 21
279949.3815871657
  0
LINE
  8
_0-0_
  6
CONTINUOUS
 62
    4
 10
391111.69463738106
 20
279949.3815871657
 11
391112.06564114447
 21
279949.64136679756
  0
LINE
  8
_0-0_
  6
CONTINUOUS
 62
    4
 10
391112.06564114447
 20
279949.64136679756
 11
391112.38589826738
 21
279949.96162392048
  0
LINE
  8
_0-0_
  6
CONTINUOUS
 62
    4
 10
391112.38589826738
 20
279949.96162392048
 11
391112.64567789924
 21
279950.33262768388
  0
LINE
  8
_0-0_
  6
CONTINUOUS
 62
    4
 10
391112.64567789924
 20
279950.33262768388
 11
391112.83708676731
 21
279950.74310532614
  0
LINE
  8
_0-0_
  6
CONTINUOUS
 62
    4
 10
391112.83708676731
 20
279950.74310532614
 11
391112.95430901001
 21
279951.18058469176
  0
LINE
  8
_0-0_
  6
CONTINUOUS
 62
    4
 10
391112.95430901001
 20
279951.18058469176
 11
391112.99378288887
 21
279951.63177319168
  0
LINE
  8
_0-0_
  6
CONTINUOUS
 62
    4
 10
391112.99378288887
 20
279951.63177319168
 11
391112.99378288887
 21
279951.63177319168
  0
TEXT
  8
_0-0_
 62
    7
 10
391102.86684603995
 20
279952.63177319168
 40
35.842222222222226
 41
0.9781003937007872
 50
0
  1
20
  0
TEXT
  8
_0-0_
 62
    7
 10
390350.98077971337
 20
281032.26393515663
 40
43.010666666666651
 41
0.9462939557981393
 50
0
  1
TILE 900-20
  0
ENDSEC
  0
EOF
